Tampilkan posting dengan label chordtab. Tampilkan semua posting
Tampilkan posting dengan label chordtab. Tampilkan semua posting

Chord Geisha " Lumpuhkanlah Ingatanku ''

Posted by Unknown 2 Komentar
Chord Geisha " Lumpuhkanlah Ingatanku ''
[intro] G D G A

          D
Jangan sembunyi
                          G
Ku mohon padamu jangan sembunyi
                          Em
Sembunyi dari apa yang terjadi
                          A
Tak seharusnya hatimu kau kunci

   D
Bertanya
                        G
cobalah bertanya pada semua
                         Em
Di sini ku coba untuk bertahan
                          A
Ungkapkan semua yang ku rasakan


      Bm               A/C#
Kau acuhkan aku, kau diamkan aku
         G        A
Kau tinggalkan aku

[chorus]
         G          A           F#m        Bm
Lumpuhkanlah ingatanku, hapuskan tentang dia
         G          A
Ku ingin ku lupakannya

          D
Jangan sembunyi
                          G
Ku mohon padamu jangan sembunyi
                          Em
Sembunyi dari apa yang terjadi
                          A
Tak seharusnya hatimu kau kunci


[chorus]
         G          A           F#m        Bm
Lumpuhkanlah ingatanku, hapuskan tentang dia
  Em         A            D
hapuskan memoriku tentangnya
         G          A           F#m        Bm
Hilangkanlah ingatanku jika itu tentang dia
         G          A
Ku ingin ku lupakannya

[solo] G Bm G A

[chorus:overtone]
         A          B           G#m        C#m
Lumpuhkanlah ingatanku, hapuskan tentang dia
  F#m         B            E
hapuskan memoriku tentangnya
         A          B           G#m        C#m
Hilangkanlah ingatanku jika itu tentang dia
         A          B
Ku ingin ku lupakannya
         A          B           G#m        C#m
Lumpuhkanlah ingatanku, hapuskan tentang dia
         D           B
Ku ingin ku lupakannya

     C#m                B
Kau acuhkan aku, kau diamkan aku
         A
Kau tinggalkan aku

Baca Selengkapnya ....

Tab Gitar Sweet Child O Mine Acoustic

Posted by Iwan Kurniawan 1 Komentar

Tab Gitar Sweet Child O Mine Acoustic

e|--------3---2---|      |--------3---2--|      |--------3---2----|
b|--3-------------|      |--3------------|      |--3--------------|
g|----2-0---2---2-|      |----2-0---2---2|      |----2-0---2---2--|
d|0---------------| x2   |---------------| x2   |-----------------| x2
a|--------------- |     |3--------------|      |-----------------|
e|----------------|      |---------------|      |3----------------|

e|--------3---2----|
b|--3--------------|
g|----2-0---2---2--|
d|0----------------| x2
a|-----------------|
e|-----------------|


e|5-3-2-| x2 |5-3-0-| x2 |3-3-3 x2  e|2~-|
b|----3-|    |----1-|    |----3----------|
g|----2-|    |----0-|    |---------------|
d|------|    |----2-|    |---------------|
a|------|    |----3-|    |----2----------|
e|------|    |------|    |----3----------|


Baca Selengkapnya ....

Tab Gitar Lamb Of God - Laid To Rest

Posted by Iwan Kurniawan 0 Komentar


» intro
E|---------------------------------------------------------|
B|---------------------------------------------------------|
G|---------------------------------------------------------|
D|-------------------------3-------------------------------|
A|-/10\--------6-5-3---------5-6---------------------------|
D|-/10\--0-0-0-------0-0-0-------0-0-0-8-5-4/7-8-7-10-7-8--|
       pm.....       .....       .....

E|-------------------------------------------------------|
B|-------------------------------------------------------|
G|-------------------------------------------------------|
D|--------4h5p4---------8-7-5-4h5p4---4------------------|
A|--------------5-------------------6---5-6-3-5---3------|
D|--0-0-0---------0-0-0-------------------------6---5-6--|
  pm.....         .....

(repeat three times)                               (play for last time)
E|------------------------------------------------|----------------------|
B|------------------------------------------------|----------------------|
G|------------------------------------------------|----------------------|
D|------------------------------------------------|----------------------|
A|--2-2-2-2------2-2-2-2------2-2--2-2------------|--2-2--2-2------------|
D|--2-2-2-2-3*b--2-2-2-2-3*b--2-2--2-2-3-2-5-4-3--|--2-2--2-2-3-2-3-2-1--|
  pm.......      .......      ........               ........

» verse riff
E|---------------------------------------|
B|--------------------13-------11--------|
G|--15\14----12h14-------15-------14-----|
D|--------12-------12-------12-------12--|
A|---------------------------------------|
D|---------------------------------------|


» pre-chorus (let chords ring out)
E|--------------------------------------------------|
B|--------------------------------------------------|
G|--7---5---12--11---5---3--------------------------|
D|--x---x----x---x---x---x---7---5---8---7---3---1--|
A|--5---3---10---9---3---1---x---x---x---x---x---x--|
D|---------------------------7---5---8---7---3---1--|


» chorus
E|---------------------------------------------------------|
B|---------------------------------------------------------|
G|---------------------------------------------------------|
D|---------------------------------------------------------|
A|---------------------------------------------------------|
D|--0---0-6-3-5---0---0-1-3-1---0---0-6-3-5-0-1-3-5*b/r-3--|
                                          pm.....

» pre-last verse
E|-------------------------------------|
B|-------------------------------------|
G|-------------------------------------|
D|-------------------------------------|
A|-------------------------------------|
D|---0--1--3--5*b/r--3--0--4--7b/r--4--|


» last verse
E|-----------------------------------------------------|
B|-----------------------------------------------------|
G|-----------------------------------------------------|
D|----------------------------1-------1---1-------1----|
A|--5-------5---5-------5------------------------------|
D|----5-0-5---5---5-0-5---5-----5-1-5---5---5-1-5---5--|
    pm.....   .   .....   .     .....   .   .....   .

E|-----------------------------------------------------|
B|-----------------------------------------------------|
G|-----------------------------------------------------|
D|-----------------------------------------------------|
A|----------------------------0-------0---0-------0----|
D|--8-7-5-7-8-7-8-7-5-7-8-0-----5-1-5---1---5-1-5---1--|
  pm.......................     .....   .   .....   .

There ya go, the correct version of the song, enjoy!

Baca Selengkapnya ....

Tab Gitar Avenged Sevenfold - Critical Acclaim

Posted by Iwan Kurniawan 0 Komentar

Tab Gitar Avenged Sevenfold - Critical Acclaim
 
Avenged Sevenfold - Critical Acclaim.
Tuning - Dropped D - DADGBe
Guitar 1 - Synyster Gates
Guitar 2 - Zacky Vengence
Guitar 3 - Back Up
 
\Intro/
 
Guitar 1
 
e/-13-10---13-12~~15-17-15-13-12---13~~12~~10-12-10~~-|
B/------10-----------------------13-------------------|
G/----------------------------------------------------|
D/----------------------------------------------------|
A/----------------------------------------------------|
D/----------------------------------------------------|
 
Guitar 2
 
e/---------------------------|
B/---------------------------|
G/-------5~----3~---5~-------|
D/-0~----5~----3~---5~----0~-|
A/-0~----3~----1~---3~----0~-|
D/-0~---------------------0~-|
 
Guitar 1
 
e/-13-10---13-12~~15-17-15-13-12---13~~12~~10-12-10~~-|
B/------10-----------------------13-------------------|
G/----------------------------------------------------|
D/----------------------------------------------------|
A/----------------------------------------------------|
D/----------------------------------------------------|
 
Guitar 2
 
e/-17-13-10-17-15~~12-13-12--10-------15~~15~~13-15-13~-|
B/------------------------------13-10-------------------|
G/------------------------------------------------------|
D/------------------------------------------------------|
A/------------------------------------------------------|
D/------------------------------------------------------|
 
Guitar 3
 
e/---------------------------|
B/---------------------------|
G/-------5~----3~---5~-------|
D/-0~----5~----3~---5~----0~-|
A/-0~----3~----1~---3~----0~-|
D/-0~---------------------0~-|
 
Guitar 1
e/-Do this many times before he stops screaming.
B/-17-------------------------------------------|
G/-19b------------------------------------------|
D/----------------------------------------------|
A/----------------------------------------------|
D/----------------------------------------------|
 
Guitar 2
 
e/----------------------------------------------|
B/----------------------------------------------|
G/-Same thing do this before he stops screaming.
D/----------------------------------------------|
A/-.-.-.-.-.-.-.-.------------------------------|
D/-0-0-0-0-0-0-0-0------------------------------|
 
\Verse/
 
Guitar 1
 
e/------------------|
B/--------------15--|
G/--------------17b-|
D/------------------|
A/-.-.-.-.-.-.------|
D/-0-0-0-0-0-0------|x7, But last time hit the whammy bar on 13,15b
 
Guitar 2
 
e/--------------15--|
B/--------------17b-|
G/------------------|
D/------------------|
A/-.-.-.-.-.-.------|
D/-0-0-0-0-0-0------|x7, But last time hit the whammy bar on 13,15b
 
Guitar's 2,3
         "Be quite u might piss some body off"
e/----------------|-----------|
B/----------------|-----------|
G/----------------|-----------|
D/-0--0-0-1--0--0-|-0-0-1---3-|
A/-0--0-0-1--0--0-|-0-0-1---3-|
D/-0--0-0-1--0--0-|-0-0-1---3-|x4
 
Guitar's 2,3
"Self rightousness is wearing thin"
e/----------------|--------------|
B/----------------|--------------|
G/----------------|-.-.-.-.------|
D/-0--0-0-1--0--0-|-0-0-0-0--1-3-|
A/-0--0-0-1--0--0-|-0-0-0-0--1-3-|
D/-0--0-0-1--0--0-|-0-0-0-0--1-3-|x4
 
Guitar 1 Comes at the end of the 4th time with this.
"Broken glass, you'll fade reflection"
e/-17---------16--------------------------------------12--|b
B/----18---------18---------------------------------------|
G/-------19---------19------13---12---------------14------|
D/----------19---------19------14----15-12-----15---------|
A/------------------------------------------17------------|
D/--------------------------------------------------------|
 
Chorus?
 
Guitar 1
"Telling them it's all for something real"
e/----------------------------------|
B/----------------------------------|
G/-7--7~/-9---9~/-10--7--6-6-7-9-10-|
D/-x--x~/-x---x~/-x---x--x-x-x-x-x--|
A/-5--5~/-7---7~/-8---5--4-4-5-7-8--|
D/----------------------------------|
 
Guitar 2
 
e/----------------------|
B/----------------------|
G/----------------------|
D/-0----2----8----6-----|
A/-0----3----8----7-----|
D/-0----2----8----4-----|
 
Spoken Part
 
Guitar 1,2
"So how does it feel to know that someone's kid in the heart of America"
e/-----------------------------------|
B/-----------------------------------|
G/-----------------------------------|
D/-1-0------------------------1-0----|
A/-1-0-----.-.-.-.-.-.-.-.----1-0----|
D/-1-0-----0-0-0-0-0-0-0-0----1-0----|x3
Guitar 1,2
"Well where i'm from we have a special solute"
e/-----------------------|
B/-----------------------|
G/-----------------------|
D/-------------------1-0-|
A/-.-.-.-.-.-.-.-.---1-0-|
D/-0-0-0-0-0-0-0-0---1-0-|x3
 
Guitar 1
 
e/------------------|
B/--------------15--|
G/--------------17b-|
D/------------------|
A/-.-.-.-.-.-.------|
D/-0-0-0-0-0-0------|x3, But last time hit the whammy bar on 13,15b
 
Guitar 2
 
e/--------------15--|
B/--------------17b-|
G/------------------|
D/------------------|
A/-.-.-.-.-.-.------|
D/-0-0-0-0-0-0------|x3, But last time hit the whammy bar on 13,15b

Baca Selengkapnya ....

Tab Gitar Avenged Sevenfold Nightmare

Posted by Iwan Kurniawan 0 Komentar
Tab Gitar Avenged Sevenfold Nightmare


Nightmare
 
this is pretty close feel free to email me if you notice something wrong
 hope you like


intro
  guitar 1
E[--------------------------------------------------------]
B[--------------------------------------------------------]
G[--------------------------------------------------------]
D[-------/7-7-6-6-5-5-----------------5-7-8---------------]x4 
A[--------------------8-5s\3/5~-4-5-7---------------------]
D[--------------------------------------------------------]

E[--------------------------------------------------------]
B[--------------------------------------------------------]play on the fourth play through of intro
G[-----------------5/7-7-5--5h7h9-s/-14sustain------------]
D[-----(8)---7-6-5----------------------------------------]
A[--------------------------------------------------------]
D[--------------------------------------------------------]

   guitar 2
E[-------------------------------------------------------------]
B[-------------------------------------------------------------]
G[-------------------------------------------------------------]
D[------------------------------------------------------------0]let last note ring
A[------------------------------------------------------------0]
D[00000----000000----000000-0000-0000-0000-0000-0000-0000-00000]
  ............................PM..............................

E[-------------------------------------------------------------]
B[-------------------------------------------------------------]
G[-------------------------------------------------------------]
D[---------0-----------0-----------03-3/5-5-5/5-5-5/6~~~~~~~~~-]
A[---------0-----------0-----------01-1/2-2-2/3-3-3/4~~~~~~~~~-]
D[0000000000--0000000000--0000000000---------------------------]
  ...pm....   ...pm....   ....pm...
 
E[--------------------------------------------------------]
B[--------------------------------------------------------]
G[--------------------------------------------------------]
D[--------------------------------------------------------]
A[--------------------------------------------------------]
D[00000000000000000000000000000000000000000000000000000000]

        both guitars

E[--------------------------------------------------------]
B[--------------------------------------------------------]
G[--------------------------------------------------------]
D[--------------------------------------------------------]
A[--------------------------------------------------------]
D[--3^4-0-00000--3^4-0-00000--3^4-0-00000--530530530530---]
 (slowly bend up to 4th fret then sturm the open 0 note)
    (repeat this till "flesh is burning in the air")

        guitar 1
E[--------------------------------------------------------]
B[--------------------------------------------------------]
G[--------------------------------------------------------]
D[-----------7--6--5--5p0-repeat 4x ----------------------]
A[--------------------------------------------------------]
D[--------------------------------------------------------]


        guitar 2
E[--------------------------------------------------------]
B[--------------------------------------------------------]
G[--------------------------------------------------------]
D[-3----3----3---3----3----3---3----3----3----------------]x4
A[-3----3----3---3----3----3---3----3----3----------------]
D[-3-00-3-00-3-0-3-00-3-00-3-0-3-00-3-00-3-0-530530530530-]
(on 4th play through 530 is repeated more just hear the song and youll get it)


        both guitars
E[--------------------------------------------------------]
B[--------------------------------------------------------]
G[--------------------------------------------------------]
D[-0~--3~--3~--3~----0~--3~--3~--3~--2-22-2-22-2-2-2------]
A[-0~--5~--3~--1~----0~--5~--3~--1~--0-00-0-00-0-0-0------]
D[-0~------3~--------0~------3~--------pm---pm---pm-------]
(synyster gates does some whammy affects between these to sections)

       
        both guitars

E[--------------------------------------------------------]
B[--------------------------------------------------------]
G[--------------------------------------------------------]
D[--------------------------------------------------------]
A[--------------------------------------------------------]
D[--3^4-0-00000--3^4-0-00000--3^4-0-00000--530530530530---]
 (slowly bend up to 4th fret then sturm the open 0 note)
    (repeat this till "flesh is burning in the air")

        guitar 1
E[--------------------------------------------------------]
B[--------------------------------------------------------]
G[--------------------------------------------------------]
D[-----------7--6--5--5p0-repeat 4x ----------------------]
A[--------------------------------------------------------]
D[--------------------------------------------------------]


        guitar 2
E[--------------------------------------------------------]
B[--------------------------------------------------------]
G[--------------------------------------------------------]
D[-3----3----3---3----3----3---3----3----3----------------]x4
A[-3----3----3---3----3----3---3----3----3----------------]
D[-3-00-3-00-3-0-3-00-3-00-3-0-3-00-3-00-3-0-530530530530-]
(on 4th play through 530 is repeated more just hear the song and youll get it)


        both guitars
E[--------------------------------------------------------]
B[--------------------------------------------------------]
G[--------------------------------------------------------]
D[-0~--3~--3~--3~----0~--3~--3~--3~--2-22-2-22-2-2-2------]
A[-0~--5~--3~--1~----0~--5~--3~--1~--0-00-0-00-0-0-0------]
D[-0~------3~--------0~------3~--------pm---pm---pm-------]

        interlude   guitar 1
E[--/17-17-16-16-15-15-13---------------------------------]
B[-----------------------15---------------15--17/18-------]
G[---------------------------------13--16-----------------]
D[--------------------------12--15------------------------]
A[--------------------------------------------------------]
D[--------------------------------------------------------]


E[--/17-17-16-16-15-15-13---------------------------------]
B[------------------------15-13-15---------------15--17---]
G[----------------------------------------13--16----------]
D[---------------------------------12--15-----------------]
A[--------------------------------------------------------]
D[--------------------------------------------------------]


E[--------------------------------------------------------]
B[------------------13/15--15--13--13h15/17---------------]
G[--15~~~-14-13-12~---------------------------------------]
D[--------------------------------------------------------]
A[--------------------------------------------------------]
D[--------------------------------------------------------]

        guitar 2
E[--------------------------------------------------------]
B[--------------------------------------------------------]
G[--------------------------------------------------------]
D[--0~~~~~~~~---0~~~~~~~---3--3/5-5-5/5-5-5/6-------------]
A[--0~~~~~~~~---0~~~~~~~---1--1/2-2-2/3-3-3/4-------------]
D[--0~~~~~~~~---0~~~~~~~----------------------------------]

        solo guitar 1 couldnt get the begining sweeps sorry
E[-17--/16--/15-15^16v15--13--17p13\------17p13\----------]
B[----/----/------------------------\15\---------\15\-----]
G[---/----/-----------------------------14-----------14---]
D[--/----/------------------------------------------------]
A[--------------------------------------------------------]

E[---------------------13--17-18-17---15~^17v15----13--12-13-15-15^17-]
B[------------------15--------------------------15--------------------]
G[-------14-15-14-----------------------------------------------------]
D[12--15--------------------------------------------------------------]
A[--------------------------------------------------------------------]
D[--------------------------------------------------------------------]

 This is the fast picking part, to save space i just put the frets you strum, and slide up to.
        (listen to the song for the slide ups they can be a little confusing)
E[--------------------------------------------------------]
B[-15picking/19-13---/17-12----/15-10---12-13-12-10-8-10--]
G[--------------------------------------------------------]
D[--------------------------------------------------------]
A[--------------------------------------------------------]
D[--------------------------------------------------------]
                                                                     |
                                                     (this part here v is fast picking as well)
E[-----------------------------------------12-13-15///24\\\15-15-14-12---------------------]
B[---------------------------------12-13-15---------------------------15-14-12-14-12--15-14]
G[-------------------------12-14-15-------------------------------------------------14-----]
D[----------------12-14-15-----------------------------------------------------------------]
A[--------12-14-15-------------------------------------------------------------------------]
D[12-14-15---------------------------------------------------------------------------------]


E[------------------------17-------------------------------------18-17---------------------]
B[15---141414151515161616-----1515141514151413---17171818191920----------------------------]
G[-----------------------------------------------------------------------------------------]
D[----------------------------------------------------------------------7-6h7p6\\5---------]
A[--------------------------------------------------------------------------------8p5\3/5~~]
D[-----------------------------------------------------------------------------------------]

        solo guitar 2 (rythem)
E[--------------------------------------------------------]
B[--------------------------------------------------------]
G[--------------------------------------------------------]
D[-0-----------------3---3-5-5-6--------------------------]
A[-0----30-0----30---3---1-2-3-4--------------------------]
D[-0--0030-0--0030-003---^^^^^^^^-------------------------]
   (play 3 times......)  ||||||||
               (then this after third time)

        Both guitars
E[------------]
B[------------]
G[------------]
D[-0----------]x13
A[-0---0---0--]
D[-0-000-0000-]

        guitar 1 solo 2 (this is probably wrong but i tried)
E[------------------------------------------15-14-12-12/18-18-18-17---------------------]
B[--------------------------15-14-12-1214-15--------------------------------------------]
G[---------15-14-12-12-14-15------------------------------------------------------------]
D[-12-14-15---------------------------------------------------------7-6h7p6\\5----------]
A[----------------------------------------------------------------------------8p5\3/5~~~]
D[--------------------------------------------------------------------------------------]

        guitar 2 solo 2 (rythem)
E[------------------------------------------------------------]
B[------------------------------------------------------------]
G[------------------------------------------------------------]
D[-3-3-3-3-3-3-3-3-3-3-3-3-3-3-3-3-3-3-3-3-3-3-3-3-3-3--------]
A[-1-1-1-1-1-1-1-1-1-1-1-1-1-1-1-1-1-1-1-1-1-1-1-1-1-1--------]
D[-----------------------------------------------------3^4-0--]

        Both guitars
E[------------]
B[------------]
G[------------]
D[-0----------]x13
A[-0---0---0--]
D[-0-000-0000-]

        both guitars
E[------------------------------------------------------------]
B[------------------------------------------------------------]
G[------------------------------------------------------------]
D[-3-3-3-3-5-5-5-5-3-3-3-3-5-5-5-5-3-3-3-3-1-1-1-1-3--5--5--6-]
A[-1-1-1-1-3-3-3-3-1-1-1-1-3-3-3-3-1-1-1-1-3-3-3-3-1--2--3--4-]
D[------------------------------------------------------------]

E[------------------------------------------------------------]
B[------------------------------------------------------------]
G[------------------------------------------------------------]
D[------------------------------------------------------------]
A[------------------------------------------------------------]
D[000000000000000000000000000000000000000000000000000000000000]
  ...............................pm...........................

        outro both guitars
E[---------------------------------------------------------------------]
B[---------------------------------------------------------------------]
G[---------------------------------------------------------------------]
D[-0~--3~--3~--3~----0~--3~--3~--3~-x4 then this(2-22-2-22-2-2-2)------]
A[-0~--5~--3~--1~----0~--5~--3~--1~-x4 then this(0-00-0-00-0-0-0)------]
D[-0~------3~--------0~------3~-------------------pm---pm---pm---------]

Baca Selengkapnya ....